ISO-10303-21;
HEADER;
/* Generated by software containing ST-Developer
 * from STEP Tools, Inc. (www.steptools.com) 
 */

FILE_DESCRIPTION(
/* description */ (''),
/* implementation_level */ '2;1');

FILE_NAME(
/* name */ 
'C:\\Work\\Designs\\Frontplatte Aluminium\\10 INTERNET\\03 STEP\\07131
00300 - Aluminium-Frontplatte MBRCA 20-20K-MBR 20.stp',
/* time_stamp */ '2017-07-05T14:34:15+02:00',
/* author */ ('robin.rentz'),
/* organization */ (''),
/* preprocessor_version */ 'ST-DEVELOPER v16.5',
/* originating_system */ 'Autodesk Inventor 2017',
/* authorisation */ '');

FILE_SCHEMA (('AUTOMOTIVE_DESIGN { 1 0 10303 214 3 1 1 }'));
ENDSEC;

DATA;
#10=MECHANICAL_DESIGN_GEOMETRIC_PRESENTATION_REPRESENTATION('',(#13),#307);
#11=SHAPE_REPRESENTATION_RELATIONSHIP('SRR','None',#316,#12);
#12=ADVANCED_BREP_SHAPE_REPRESENTATION('',(#14),#306);
#13=STYLED_ITEM('',(#325),#14);
#14=MANIFOLD_SOLID_BREP('Volumenk\X\F6rper1',#187);
#15=LINE('',#281,#27);
#16=LINE('',#283,#28);
#17=LINE('',#285,#29);
#18=LINE('',#286,#30);
#19=LINE('',#289,#31);
#20=LINE('',#291,#32);
#21=LINE('',#292,#33);
#22=LINE('',#295,#34);
#23=LINE('',#297,#35);
#24=LINE('',#298,#36);
#25=LINE('',#300,#37);
#26=LINE('',#301,#38);
#27=VECTOR('',#235,10.);
#28=VECTOR('',#236,10.);
#29=VECTOR('',#237,10.);
#30=VECTOR('',#238,10.);
#31=VECTOR('',#241,10.);
#32=VECTOR('',#242,10.);
#33=VECTOR('',#243,10.);
#34=VECTOR('',#246,10.);
#35=VECTOR('',#247,10.);
#36=VECTOR('',#248,10.);
#37=VECTOR('',#251,10.);
#38=VECTOR('',#252,10.);
#39=PLANE('',#201);
#40=PLANE('',#202);
#41=PLANE('',#203);
#42=PLANE('',#204);
#43=PLANE('',#205);
#44=PLANE('',#206);
#45=FACE_BOUND('',#68,.T.);
#46=FACE_BOUND('',#70,.T.);
#47=FACE_BOUND('',#72,.T.);
#48=FACE_BOUND('',#74,.T.);
#49=FACE_BOUND('',#80,.T.);
#50=FACE_BOUND('',#81,.T.);
#51=FACE_BOUND('',#82,.T.);
#52=FACE_BOUND('',#83,.T.);
#53=FACE_BOUND('',#85,.T.);
#54=FACE_BOUND('',#86,.T.);
#55=FACE_BOUND('',#87,.T.);
#56=FACE_BOUND('',#88,.T.);
#57=FACE_OUTER_BOUND('',#67,.T.);
#58=FACE_OUTER_BOUND('',#69,.T.);
#59=FACE_OUTER_BOUND('',#71,.T.);
#60=FACE_OUTER_BOUND('',#73,.T.);
#61=FACE_OUTER_BOUND('',#75,.T.);
#62=FACE_OUTER_BOUND('',#76,.T.);
#63=FACE_OUTER_BOUND('',#77,.T.);
#64=FACE_OUTER_BOUND('',#78,.T.);
#65=FACE_OUTER_BOUND('',#79,.T.);
#66=FACE_OUTER_BOUND('',#84,.T.);
#67=EDGE_LOOP('',(#133));
#68=EDGE_LOOP('',(#134));
#69=EDGE_LOOP('',(#135));
#70=EDGE_LOOP('',(#136));
#71=EDGE_LOOP('',(#137));
#72=EDGE_LOOP('',(#138));
#73=EDGE_LOOP('',(#139));
#74=EDGE_LOOP('',(#140));
#75=EDGE_LOOP('',(#141,#142,#143,#144));
#76=EDGE_LOOP('',(#145,#146,#147,#148));
#77=EDGE_LOOP('',(#149,#150,#151,#152));
#78=EDGE_LOOP('',(#153,#154,#155,#156));
#79=EDGE_LOOP('',(#157,#158,#159,#160));
#80=EDGE_LOOP('',(#161));
#81=EDGE_LOOP('',(#162));
#82=EDGE_LOOP('',(#163));
#83=EDGE_LOOP('',(#164));
#84=EDGE_LOOP('',(#165,#166,#167,#168));
#85=EDGE_LOOP('',(#169));
#86=EDGE_LOOP('',(#170));
#87=EDGE_LOOP('',(#171));
#88=EDGE_LOOP('',(#172));
#89=CIRCLE('',#190,2.);
#90=CIRCLE('',#191,2.);
#91=CIRCLE('',#193,2.);
#92=CIRCLE('',#194,2.);
#93=CIRCLE('',#196,2.);
#94=CIRCLE('',#197,2.);
#95=CIRCLE('',#199,2.);
#96=CIRCLE('',#200,2.);
#97=VERTEX_POINT('',#259);
#98=VERTEX_POINT('',#261);
#99=VERTEX_POINT('',#264);
#100=VERTEX_POINT('',#266);
#101=VERTEX_POINT('',#269);
#102=VERTEX_POINT('',#271);
#103=VERTEX_POINT('',#274);
#104=VERTEX_POINT('',#276);
#105=VERTEX_POINT('',#279);
#106=VERTEX_POINT('',#280);
#107=VERTEX_POINT('',#282);
#108=VERTEX_POINT('',#284);
#109=VERTEX_POINT('',#288);
#110=VERTEX_POINT('',#290);
#111=VERTEX_POINT('',#294);
#112=VERTEX_POINT('',#296);
#113=EDGE_CURVE('',#97,#97,#89,.T.);
#114=EDGE_CURVE('',#98,#98,#90,.T.);
#115=EDGE_CURVE('',#99,#99,#91,.T.);
#116=EDGE_CURVE('',#100,#100,#92,.T.);
#117=EDGE_CURVE('',#101,#101,#93,.T.);
#118=EDGE_CURVE('',#102,#102,#94,.T.);
#119=EDGE_CURVE('',#103,#103,#95,.T.);
#120=EDGE_CURVE('',#104,#104,#96,.T.);
#121=EDGE_CURVE('',#105,#106,#15,.T.);
#122=EDGE_CURVE('',#105,#107,#16,.T.);
#123=EDGE_CURVE('',#108,#107,#17,.T.);
#124=EDGE_CURVE('',#106,#108,#18,.T.);
#125=EDGE_CURVE('',#106,#109,#19,.T.);
#126=EDGE_CURVE('',#110,#108,#20,.T.);
#127=EDGE_CURVE('',#109,#110,#21,.T.);
#128=EDGE_CURVE('',#109,#111,#22,.T.);
#129=EDGE_CURVE('',#112,#110,#23,.T.);
#130=EDGE_CURVE('',#111,#112,#24,.T.);
#131=EDGE_CURVE('',#111,#105,#25,.T.);
#132=EDGE_CURVE('',#107,#112,#26,.T.);
#133=ORIENTED_EDGE('',*,*,#113,.F.);
#134=ORIENTED_EDGE('',*,*,#114,.F.);
#135=ORIENTED_EDGE('',*,*,#115,.F.);
#136=ORIENTED_EDGE('',*,*,#116,.F.);
#137=ORIENTED_EDGE('',*,*,#117,.F.);
#138=ORIENTED_EDGE('',*,*,#118,.F.);
#139=ORIENTED_EDGE('',*,*,#119,.F.);
#140=ORIENTED_EDGE('',*,*,#120,.F.);
#141=ORIENTED_EDGE('',*,*,#121,.F.);
#142=ORIENTED_EDGE('',*,*,#122,.T.);
#143=ORIENTED_EDGE('',*,*,#123,.F.);
#144=ORIENTED_EDGE('',*,*,#124,.F.);
#145=ORIENTED_EDGE('',*,*,#125,.F.);
#146=ORIENTED_EDGE('',*,*,#124,.T.);
#147=ORIENTED_EDGE('',*,*,#126,.F.);
#148=ORIENTED_EDGE('',*,*,#127,.F.);
#149=ORIENTED_EDGE('',*,*,#128,.F.);
#150=ORIENTED_EDGE('',*,*,#127,.T.);
#151=ORIENTED_EDGE('',*,*,#129,.F.);
#152=ORIENTED_EDGE('',*,*,#130,.F.);
#153=ORIENTED_EDGE('',*,*,#131,.F.);
#154=ORIENTED_EDGE('',*,*,#130,.T.);
#155=ORIENTED_EDGE('',*,*,#132,.F.);
#156=ORIENTED_EDGE('',*,*,#122,.F.);
#157=ORIENTED_EDGE('',*,*,#131,.T.);
#158=ORIENTED_EDGE('',*,*,#121,.T.);
#159=ORIENTED_EDGE('',*,*,#125,.T.);
#160=ORIENTED_EDGE('',*,*,#128,.T.);
#161=ORIENTED_EDGE('',*,*,#114,.T.);
#162=ORIENTED_EDGE('',*,*,#116,.T.);
#163=ORIENTED_EDGE('',*,*,#118,.T.);
#164=ORIENTED_EDGE('',*,*,#120,.T.);
#165=ORIENTED_EDGE('',*,*,#132,.T.);
#166=ORIENTED_EDGE('',*,*,#129,.T.);
#167=ORIENTED_EDGE('',*,*,#126,.T.);
#168=ORIENTED_EDGE('',*,*,#123,.T.);
#169=ORIENTED_EDGE('',*,*,#113,.T.);
#170=ORIENTED_EDGE('',*,*,#115,.T.);
#171=ORIENTED_EDGE('',*,*,#117,.T.);
#172=ORIENTED_EDGE('',*,*,#119,.T.);
#173=CYLINDRICAL_SURFACE('',#189,2.);
#174=CYLINDRICAL_SURFACE('',#192,2.);
#175=CYLINDRICAL_SURFACE('',#195,2.);
#176=CYLINDRICAL_SURFACE('',#198,2.);
#177=ADVANCED_FACE('',(#57,#45),#173,.F.);
#178=ADVANCED_FACE('',(#58,#46),#174,.F.);
#179=ADVANCED_FACE('',(#59,#47),#175,.F.);
#180=ADVANCED_FACE('',(#60,#48),#176,.F.);
#181=ADVANCED_FACE('',(#61),#39,.T.);
#182=ADVANCED_FACE('',(#62),#40,.T.);
#183=ADVANCED_FACE('',(#63),#41,.T.);
#184=ADVANCED_FACE('',(#64),#42,.T.);
#185=ADVANCED_FACE('',(#65,#49,#50,#51,#52),#43,.F.);
#186=ADVANCED_FACE('',(#66,#53,#54,#55,#56),#44,.T.);
#187=CLOSED_SHELL('',(#177,#178,#179,#180,#181,#182,#183,#184,#185,#186));
#188=AXIS2_PLACEMENT_3D('placement',#257,#207,#208);
#189=AXIS2_PLACEMENT_3D('',#258,#209,#210);
#190=AXIS2_PLACEMENT_3D('',#260,#211,#212);
#191=AXIS2_PLACEMENT_3D('',#262,#213,#214);
#192=AXIS2_PLACEMENT_3D('',#263,#215,#216);
#193=AXIS2_PLACEMENT_3D('',#265,#217,#218);
#194=AXIS2_PLACEMENT_3D('',#267,#219,#220);
#195=AXIS2_PLACEMENT_3D('',#268,#221,#222);
#196=AXIS2_PLACEMENT_3D('',#270,#223,#224);
#197=AXIS2_PLACEMENT_3D('',#272,#225,#226);
#198=AXIS2_PLACEMENT_3D('',#273,#227,#228);
#199=AXIS2_PLACEMENT_3D('',#275,#229,#230);
#200=AXIS2_PLACEMENT_3D('',#277,#231,#232);
#201=AXIS2_PLACEMENT_3D('',#278,#233,#234);
#202=AXIS2_PLACEMENT_3D('',#287,#239,#240);
#203=AXIS2_PLACEMENT_3D('',#293,#244,#245);
#204=AXIS2_PLACEMENT_3D('',#299,#249,#250);
#205=AXIS2_PLACEMENT_3D('',#302,#253,#254);
#206=AXIS2_PLACEMENT_3D('',#303,#255,#256);
#207=DIRECTION('axis',(0.,0.,1.));
#208=DIRECTION('refdir',(1.,0.,0.));
#209=DIRECTION('center_axis',(0.,0.,1.));
#210=DIRECTION('ref_axis',(-1.,0.,0.));
#211=DIRECTION('center_axis',(0.,0.,-1.));
#212=DIRECTION('ref_axis',(-1.,0.,0.));
#213=DIRECTION('center_axis',(0.,0.,1.));
#214=DIRECTION('ref_axis',(-1.,0.,0.));
#215=DIRECTION('center_axis',(0.,0.,1.));
#216=DIRECTION('ref_axis',(-1.,0.,0.));
#217=DIRECTION('center_axis',(0.,0.,-1.));
#218=DIRECTION('ref_axis',(-1.,0.,0.));
#219=DIRECTION('center_axis',(0.,0.,1.));
#220=DIRECTION('ref_axis',(-1.,0.,0.));
#221=DIRECTION('center_axis',(0.,0.,1.));
#222=DIRECTION('ref_axis',(-1.,0.,0.));
#223=DIRECTION('center_axis',(0.,0.,-1.));
#224=DIRECTION('ref_axis',(-1.,0.,0.));
#225=DIRECTION('center_axis',(0.,0.,1.));
#226=DIRECTION('ref_axis',(-1.,0.,0.));
#227=DIRECTION('center_axis',(0.,0.,1.));
#228=DIRECTION('ref_axis',(-1.,0.,0.));
#229=DIRECTION('center_axis',(0.,0.,-1.));
#230=DIRECTION('ref_axis',(-1.,0.,0.));
#231=DIRECTION('center_axis',(0.,0.,1.));
#232=DIRECTION('ref_axis',(-1.,0.,0.));
#233=DIRECTION('center_axis',(1.,0.,0.));
#234=DIRECTION('ref_axis',(0.,1.,0.));
#235=DIRECTION('',(0.,-1.,0.));
#236=DIRECTION('',(0.,0.,1.));
#237=DIRECTION('',(0.,1.,0.));
#238=DIRECTION('',(0.,0.,1.));
#239=DIRECTION('center_axis',(1.29346371800989E-16,-1.,0.));
#240=DIRECTION('ref_axis',(1.,0.,0.));
#241=DIRECTION('',(-1.,-1.29346371800989E-16,0.));
#242=DIRECTION('',(1.,1.29346371800989E-16,0.));
#243=DIRECTION('',(0.,0.,1.));
#244=DIRECTION('center_axis',(-1.,0.,0.));
#245=DIRECTION('ref_axis',(0.,-1.,0.));
#246=DIRECTION('',(0.,1.,0.));
#247=DIRECTION('',(0.,-1.,0.));
#248=DIRECTION('',(0.,0.,1.));
#249=DIRECTION('center_axis',(-1.29346371800989E-16,1.,0.));
#250=DIRECTION('ref_axis',(-1.,0.,0.));
#251=DIRECTION('',(1.,1.29346371800989E-16,0.));
#252=DIRECTION('',(-1.,-1.29346371800989E-16,0.));
#253=DIRECTION('center_axis',(0.,0.,1.));
#254=DIRECTION('ref_axis',(1.,0.,0.));
#255=DIRECTION('center_axis',(0.,0.,1.));
#256=DIRECTION('ref_axis',(1.,0.,0.));
#257=CARTESIAN_POINT('',(0.,0.,0.));
#258=CARTESIAN_POINT('Origin',(-96.5,-52.5,0.));
#259=CARTESIAN_POINT('',(-94.5,-52.5,1.));
#260=CARTESIAN_POINT('Origin',(-96.5,-52.5,1.));
#261=CARTESIAN_POINT('',(-94.5,-52.5,0.));
#262=CARTESIAN_POINT('Origin',(-96.5,-52.5,0.));
#263=CARTESIAN_POINT('Origin',(96.5000000000001,-52.4999999999999,0.));
#264=CARTESIAN_POINT('',(98.5000000000001,-52.4999999999999,1.));
#265=CARTESIAN_POINT('Origin',(96.5000000000001,-52.4999999999999,1.));
#266=CARTESIAN_POINT('',(98.5000000000001,-52.4999999999999,0.));
#267=CARTESIAN_POINT('Origin',(96.5000000000001,-52.4999999999999,0.));
#268=CARTESIAN_POINT('Origin',(96.4999999999999,52.5000000000001,0.));
#269=CARTESIAN_POINT('',(98.4999999999999,52.5000000000001,1.));
#270=CARTESIAN_POINT('Origin',(96.4999999999999,52.5000000000001,1.));
#271=CARTESIAN_POINT('',(98.4999999999999,52.5000000000001,0.));
#272=CARTESIAN_POINT('Origin',(96.4999999999999,52.5000000000001,0.));
#273=CARTESIAN_POINT('Origin',(-96.5,52.4999999999999,0.));
#274=CARTESIAN_POINT('',(-94.5,52.4999999999999,1.));
#275=CARTESIAN_POINT('Origin',(-96.5,52.4999999999999,1.));
#276=CARTESIAN_POINT('',(-94.5,52.4999999999999,0.));
#277=CARTESIAN_POINT('Origin',(-96.5,52.4999999999999,0.));
#278=CARTESIAN_POINT('Origin',(103.,-59.25,0.));
#279=CARTESIAN_POINT('',(103.,59.25,0.));
#280=CARTESIAN_POINT('',(103.,-59.25,0.));
#281=CARTESIAN_POINT('',(103.,59.25,0.));
#282=CARTESIAN_POINT('',(103.,59.25,1.));
#283=CARTESIAN_POINT('',(103.,59.25,0.));
#284=CARTESIAN_POINT('',(103.,-59.25,1.));
#285=CARTESIAN_POINT('',(103.,59.25,1.));
#286=CARTESIAN_POINT('',(103.,-59.25,0.));
#287=CARTESIAN_POINT('Origin',(-103.,-59.25,0.));
#288=CARTESIAN_POINT('',(-103.,-59.25,0.));
#289=CARTESIAN_POINT('',(103.,-59.25,0.));
#290=CARTESIAN_POINT('',(-103.,-59.25,1.));
#291=CARTESIAN_POINT('',(103.,-59.25,1.));
#292=CARTESIAN_POINT('',(-103.,-59.25,0.));
#293=CARTESIAN_POINT('Origin',(-103.,59.25,0.));
#294=CARTESIAN_POINT('',(-103.,59.25,0.));
#295=CARTESIAN_POINT('',(-103.,-59.25,0.));
#296=CARTESIAN_POINT('',(-103.,59.25,1.));
#297=CARTESIAN_POINT('',(-103.,-59.25,1.));
#298=CARTESIAN_POINT('',(-103.,59.25,0.));
#299=CARTESIAN_POINT('Origin',(103.,59.25,0.));
#300=CARTESIAN_POINT('',(-103.,59.25,0.));
#301=CARTESIAN_POINT('',(-103.,59.25,1.));
#302=CARTESIAN_POINT('Origin',(0.,-3.24342504574622E-15,0.));
#303=CARTESIAN_POINT('Origin',(0.,0.,1.));
#304=UNCERTAINTY_MEASURE_WITH_UNIT(LENGTH_MEASURE(0.01),#308,
'DISTANCE_ACCURACY_VALUE',
'Maximum model space distance between geometric entities at asserted c
onnectivities');
#305=UNCERTAINTY_MEASURE_WITH_UNIT(LENGTH_MEASURE(1.E-6),#308,
'DISTANCE_ACCURACY_VALUE',
'Maximum model space distance between geometric entities at asserted c
onnectivities');
#306=(
GEOMETRIC_REPRESENTATION_CONTEXT(3)
GLOBAL_UNCERTAINTY_ASSIGNED_CONTEXT((#304))
GLOBAL_UNIT_ASSIGNED_CONTEXT((#308,#311,#309))
REPRESENTATION_CONTEXT('','3D')
);
#307=(
GEOMETRIC_REPRESENTATION_CONTEXT(3)
GLOBAL_UNCERTAINTY_ASSIGNED_CONTEXT((#305))
GLOBAL_UNIT_ASSIGNED_CONTEXT((#308,#311,#309))
REPRESENTATION_CONTEXT('','3D')
);
#308=(
LENGTH_UNIT()
NAMED_UNIT(*)
SI_UNIT(.MILLI.,.METRE.)
);
#309=(
NAMED_UNIT(*)
SI_UNIT($,.STERADIAN.)
SOLID_ANGLE_UNIT()
);
#310=DIMENSIONAL_EXPONENTS(0.,0.,0.,0.,0.,0.,0.);
#311=(
CONVERSION_BASED_UNIT('degree',#313)
NAMED_UNIT(#310)
PLANE_ANGLE_UNIT()
);
#312=(
NAMED_UNIT(*)
PLANE_ANGLE_UNIT()
SI_UNIT($,.RADIAN.)
);
#313=PLANE_ANGLE_MEASURE_WITH_UNIT(PLANE_ANGLE_MEASURE(0.01745329252),#312);
#314=SHAPE_DEFINITION_REPRESENTATION(#315,#316);
#315=PRODUCT_DEFINITION_SHAPE('',$,#318);
#316=SHAPE_REPRESENTATION('',(#188),#306);
#317=PRODUCT_DEFINITION_CONTEXT('part definition',#322,'design');
#318=PRODUCT_DEFINITION(
'0713100300 - Aluminium-Frontplatte MBRCA 20-20K-MBR 20',
'0713100300 - Aluminium-Frontplatte MBRCA 20-20K-MBR 20',#319,#317);
#319=PRODUCT_DEFINITION_FORMATION('',$,#324);
#320=PRODUCT_RELATED_PRODUCT_CATEGORY(
'0713100300 - Aluminium-Frontplatte MBRCA 20-20K-MBR 20',
'0713100300 - Aluminium-Frontplatte MBRCA 20-20K-MBR 20',(#324));
#321=APPLICATION_PROTOCOL_DEFINITION('international standard',
'automotive_design',2009,#322);
#322=APPLICATION_CONTEXT(
'Core Data for Automotive Mechanical Design Process');
#323=PRODUCT_CONTEXT('part definition',#322,'mechanical');
#324=PRODUCT('0713100300 - Aluminium-Frontplatte MBRCA 20-20K-MBR 20',
'0713100300 - Aluminium-Frontplatte MBRCA 20-20K-MBR 20',$,(#323));
#325=PRESENTATION_STYLE_ASSIGNMENT((#326));
#326=SURFACE_STYLE_USAGE(.BOTH.,#327);
#327=SURFACE_SIDE_STYLE('',(#328));
#328=SURFACE_STYLE_FILL_AREA(#329);
#329=FILL_AREA_STYLE('',(#330));
#330=FILL_AREA_STYLE_COLOUR('',#331);
#331=COLOUR_RGB('',0.749019607843137,0.749019607843137,0.749019607843137);
ENDSEC;
END-ISO-10303-21;
